Аквариум – Город (из к/ф “Асса”)

2019-08-04 Аквариум – Город (из к/ф “Асса”)
E|-----------------------------2-0---------0-2--------3-2-0------0----3-2--0---0------|
B|-----3-2--------2-3--------------3-2-3--3-----------------3-2-3------------3---2----|
G|---------4-3-4------4---------------------------------------------------------------|
D|--4-----------------------4----------------------4--2---------------2-4-------------|
A|-----2-----------------------2------------------------------------------------------|
E|------------------------------------------------------------------------------------|

E|-----------------------------2-0---------0-2--------3-2-0------0----3-2--0----------|
B|-----3-2--------2-3--------------3-2-3--3-----------------3-2-3------------3-2------|
G|---------4-3-4------4------------------------------------------------------------4--|
D|--4-----------------------4----------------------4--2---------------2-4-------------|
A|-----2-----------------------2---------------------------------------------------2--|
E|------------------------------------------------------------------------------------|

    Bm      F#  Bm
Под небом голубым
       Bm      F# Bm     
Есть город золотой -
           Em                       
С прозрачными воротами
C#m7-5       F#   
И яркою звездой

    Bm      F#  Bm
А в городе том сад,
    Bm      F#  Bm
Всё травы, да цветы
           Em     
Гуляют там животные
    F#        Bm
Невиданной красы

Припев:
      B7                   Em                     
Одно, как жёлтый, огнегривый лев,
      A              D                  
Другое вол, исполненый очей
   Em                     C#m7-5 F# 
С ними золотой орёл небе-есный,
Em                               C#m7-5 F# Bm 
Чей так светел взор незабыва----е--мый

    Bm      F# Bm
А в небе голубом
    Bm      F# Bm
Горит одна звезда -
           Em     
Она твоя, о ангел мой,
C#m7-5       F#
Она твоя всегда!

    Bm      F#  Bm
Кто любит, тот любим,
    Bm      F#  Bm
Кто светел, тот и свят
           Em     
Пускай ведёт звезда тебя
    F#        Bm
Дорогой в дивный сад

Припев:
      B7                   Em                     
Тебя там встретит огнегривый лев,
      A              D   
И синий вол, исполненый очей
   Em                   C#m7-5 F# 
С ними золотой орёл небесный,
Em                      C#m7-5 F# Bm 
Чей так светел взор незабываемый

Аквариум - Город (из к/ф "Асса") аккорды

guitar chord A
guitar chord Bm
guitar chord D
guitar chord Em
guitar chord B7
guitar chord F#

Разбор Аквариум - Город (из к/ф "Асса") на гитаре

1 Звезда2 Звезды3 Звезды4 Звезды5 Звезд (Пока оценок нет)
Загрузка...