Аквариум – Голубиное слово

2019-08-04 Аквариум – Голубиное слово
Каподастр на 3-м ладу
 
Вступление:
E--0-2sl5---0---1h0-0------------0-
B-0--------3-------3---------0-1---
G---------------------------2------
D------------------------2-3-------
A----------------------------------
E----------------------------------
 
E-1-0-----0-1--5-7------------0--------0---0-1-0-0-----
B----0---3--------------------------0-1---------1----0-
G--------------------------9-------2-------------------
D--------------------7-9-10-----2-3--------------------
A-----------------7-8----------------------------------
E------------------------------------------------------
 
                         |быстро 3 раза |
E-8-7-5------------------|--------------|----------------
B------------------10-12-|---10----12-10|----------------
G-----------------9------|--9--9--9-----|--10-9----------
D-----------7-9-10-------|10----10------|------10-9----2-
A--------7-8-------------|--------------|--------------0-
E------------------------|--------------|----------------
                         |быстро 3 раза |
 
E-0-1-0--0-1-0-------0---0-7-0-5-0-7-0-5-0-7-0-5-0-7-0-5-
B-----------------0-1------------------------------------
G----------------2--------------------------------------- Am
D-------------2-3----------------------------------------
A--------------------------------------------------------
E--------------------------------------------------------
 
   E-------------------          -------------------
   B-------------------          -------------------
Am G------------------- Am Am Am ------------------- Am 4:0 
   D-0h2-2-0---0-2-----          --0---0-2-0----0-2-
   A--------0-3---0----          -0-0-3-------------
   E---------------3-0-          -----------3-3-----
 
Am    С                  G
 Нарисованная ветками сирени;
Am  С                    G
 Написанная листьями по коже;
Dm                        G
 Самым своим последним дыханьем
Dm                             G
Я скажу: Господи, любимый, спасибо...
Am   С                    G
 За то, что я сподобился видеть
 Am        C                 G
Как Ты сгораешь в пламени заката,
Dm                    G    G + c : G
 Чтобы никогда не вернуться,
     Dm                   G
Потому что ты никуда не уходишь;
         C               G        Am
Просто ещё одному будет некуда деваться,
  C                     G         Am
Ещё одного за руку и в сад над рекою,
Dm                         G   G + c : G
 Где ходят по крыльям херувимов,
Dm                            G
 Потому что им никто не дал имя -
                Am     1:V 1:0 2:I 2:0 Am Am/G
И, значит, всё молча...

А завтра будет то, что было раньше;
Священный союз земли и неба;
Если повезёт, поймаешь пулю зубами,
Одна только красота косит без пощады;
Потому что она держит суд в сердце,
Потому что она держит путь на север,
Где ни времени, ни объяснений,
Один только снег до горизонта.
Значит, ещё перед одним раскроется небо
С сияющими от счастья глазами,
Дела Твои, Господи, бессмертны
И пути твои неисповедимы
               Am   1:V 1:0 2:I 2:0 Am
И все в одну сторону...

Проигрыш: Am C G | Am C G | Dm G | Dm G }x2 
          Am 1:V 1:0 2:I 2:0 Am

Напишите это слово на камне,
Раскрасьте его северным сияньем,
Наполните голубиной кровью
Dm                              Am  1:V 1:0 2:I 2:0
 И забудьте навсегда, что оно значит;
Голуби возьмут его в небо,
Так высоко, что больше не видно,
И небо расколется на части,
Dm                      Am
 Но об этом никто не узнает;
А мы сгорим в пламени заката,
Чтобы остаться навсегда в саду над рекою,
Потому что это нашими губами
Ты сказал однажды, раз и навсегда
            Am
Голубиное слово...
 
Заключение:
E----0-----0-1-5-7-
B-0-3---0-1--------
G------2-----------
D------------------
A------------------
E------------------

Аквариум - Голубиное слово аккорды

guitar chord Am
guitar chord C
guitar chord Dm
guitar chord G

Разбор Аквариум - Голубиное слово на гитаре

1 Звезда2 Звезды3 Звезды4 Звезды5 Звезд (Пока оценок нет)
Загрузка...