Аквариум – Духовный паровоз

2019-08-06 Аквариум – Духовный паровоз
Каподастр на 1-м ладу
 
Вступление:
A (V) D# A (V) - 4p.
 
G---------0----------------
D--------2----------0-3---
A-0-0-4---------2--------
E-------------3-3---------
 
         A
E---------------------------------------
H-2-2-2-2-2-2-2-2-2-2-2-2-2-2-
G-2-2-2-2-2-2-2-2-2-2-2-2-2-2- - 4p.
D-2-2-3-2-5-3-2-2-3-2-5-5-3-2-
A-0-0-0-0-0-0-0-0-0-0-0-0-0-0-
E---------------------------------------
G (III) B (VI) A F E A
 
    A
Не след лежать столбом, папа,
                       A
Не след охотиться на коз,
  G (III)              B (VI)
Пора себя спасать, папа,
                    A
Спасать себя всерьёз;
   F
Где твой третий глаз, папа?
E                       A
 Я твой духовный паровоз.
 
Проигрыш: A A G (III) B (VI) A F E A
 
Не будь духовно слеп, папа,
Не доводи меня до слёз;
Не будь духовно слеп, папа,
Не доводи меня до слёз;
Папа, папа,
Я твой духовный паровоз!
 
Проигрыш:
A F G (III) B (VI) A F E A
 
 A 
Уу-и бум-бум-бум,
 A
Уу-и бум-бум-бум,
 G (III)     B (VI)
 Уу-и бум-бум-бум,
 A
Уу-и бум-бум-бум.
 
 F                     E
Господи, помилуй, папа,
Я твой духовный паровоз.

A (V) [577655]
G (III) [355433]
B (VI) [688766]

Аквариум - Духовный паровоз аккорды

guitar chord A
guitar chord E
guitar chord F

Разбор Аквариум - Духовный паровоз на гитаре

1 Звезда2 Звезды3 Звезды4 Звезды5 Звезд (Пока оценок нет)
Загрузка...