Аквариум – День радости

2019-08-05 Аквариум – День радости
Каподастр на 5-м ладу
 
C              Am
Нам выпала великая честь
 G                   F C
Жить в перемену времён;
                 Am
Мы въехали в тоннель,
      G            F C
А вокруг стоит крест.
               Am              Em G
А в топке паровоза ждёт дед Семён;
Am    F                   G
Он выползет и всех нас съест.
G C               Am
Так потушите поезда,
 G                   F C
Дайте машинисту стакан;
              Am
Уложите его спать -
              G
Ну что ему ловить в эти дни.
Am        F
Тёмная вода,
                Am            Em
На много сотен лет - тёмная вода.
Dm
И теперь я люблю тебя,
     G
Потому что мы остались одни;
 
Проигрыш:
   C       C          G     Am    G C          G     Am    G C          G     Am  Em
E-------0--0-0-1-0-1-0--3--------0--0-0-1-0-1-0--3--------0--0-0-1-0-1-0--3--------0-
B--1---1--------------3--3--1-1-3-0------------3--3--1-1-3-3------------3--3--1-1-3-0
G-----0------------------------------------------------------------------------------ 
D----2-------------------------------------------------------------------------------
A--3---------------------------------------------------------------------------------
   F      G       C
E-------------------0---
B-----0-1-0-0-1-3-1--1--
G--2-2----------------0-
D----------------------2
A-----------------------
 
C                   G
Когда то, что мы сделали,
              Am            G
Выйдет без печали из наших рук;
C                 G
Когда семь разойдутся,
              Am                  G
Чтобы не смотреть, кто войдет в круг;
C             G
Когда белый конь
   Am            Em
Узнает своих подруг,
F G                 C
Это значит день радости.
 
C                   G
Когда звезда-можжевельник
              Am     G
Ляжет перед нами во сне,
C                   G
Когда в камнях будет сказано
              Am      G
То, что было сказано мне;
C               G
Когда великий сон
              Am          Em
Будет дарован великой стране,
F G                 C
Это значит день радости.
 
Проигрыш:
   C          G     Am    G C          G     Am    G C          G    Am    Em
E--0-0-1-0-1-0--3--------0--0-0-1-0-1-0--3--------0--0-0-1-0-1-0--3--------0-
B-------------3--3--1-1-3-0------------3--3--1-1-3-0------------3--3--1-1-3-0
G---------------------------------------------------------------------------- 
D----------------------------------------------------------------------------
A----------------------------------------------------------------------------
   F      G       C
E-------------------
B-----0-1-0-0-1-3-1-
G--2-2--------------
D-------------------
A-------------------
 
C                   G
Когда то, что мы сделали,
              Am            G
Выйдет без печали из наших рук,
C                   G
Когда семь разойдутся,
              Am            G
Потому что не от кого прятаться в круг;
C              G
Когда белый конь
              Am           Em
Поймёт и признает своих подруг,
F G                 C
Это значит день радости.
 
Проигрыш:
   C          G     Am    G C          G     Am    G C          G    Am   Em
E--0-0-1-0-1-0--3--------0--0-0-1-0-1-0--3--------0--0-0-1-0-1-0--3-5-5-7-8-3
B-------------3--3--1-1-3-0------------3--3--1-1-3-3------------3--3---------
G---------------------------------------------------------------------------- 
D----------------------------------------------------------------------------
A----------------------------------------------------------------------------
   F       G        C
E--5-5-7-8-7-7-8-10-8-
B---------------------
G---------------------
D---------------------
A---------------------
 
F
И теперь, когда нечего ждать,
       G
Кроме волчьей зари;
F        Dm
Тёмная вода
    G
И пламя бесконечной зимы -
C                  C/B
Это ж, Господи, зрячему видно,
Am             Em
А для нас повтори:
 C  G      Am       F          C     G C
Бог есть Свет, и в нём нет никакой тьмы.

Аквариум - День радости аккорды

guitar chord Am
guitar chord C
guitar chord Dm
guitar chord Em
guitar chord F
guitar chord G
1 Звезда2 Звезды3 Звезды4 Звезды5 Звезд (Пока оценок нет)
Загрузка...