Агата Кристи – Опиум для никого

2019-09-21 Агата Кристи – Опиум для никого
         Cm
     Я крашу губы гуталином,
       Bb       G
     Я обожаю чёрный цвет
        Bb
     И мой герой, он соткан весь
         Fm         G
     Из тонких запахов конфет.
        Cm
     Напудрив ноздри кокаином,
        Bb          G
     Я выхожу на променад,
         Bb
     И звёзды светят мне красиво,
        Fm        G
     И симпатичен ад.

        Cm
         Давай вечером с тобой встретимся
        Bb               G
         Будем опиум курить-рить-рить.
        Cm
         Давай вечером с тобой встретимся
        Bb                 G
         По-китайски говорить.
        Cm
         Не прячь музыку - она опиум
           Bb          G
         Для никого, только для нас.
        Cm
         Давай вечером умрем весело,
        Bb                G
         Поиграем в декаданс.

         Cm
     Убей меня, убей себя,
       Bb       G
     Ты не изменишь ничего:
        Bb
     У этой сказки нет конца
         Fm         G
     Ты не изменишь ничего.
         Cm
     Накрась ресницы губной помадой,
       Bb       G
     А губы лаком для волос
        Bb
     Ты будешь - мёртвая принцесса,
         Fm         G
     А я - твой верный пес.

Tabs:
  Модный такой заход.                                 Промеж куплету и
         Cm                                           припеву.
|--------8------------------------------------------|-----3---3---3--------
|----7-8--------------------------------------------|-----3---3---3--------
-----5-----5---------5------5----.....--------------|----------------------
----------------------------------------------------|----------------------
----------------------------------------------------|----------------------
----------------------------------------------------|----------------------

Время от времени появляется такое вот нечто:
|----13-12-11---|
----------------|
----------------|
----------------|
----------------|
----------------|

И еще вот:
----------------|
-----6-5-4------|
----------------|
----------------|
----------------|
----------------|

Агата Кристи - Опиум для никого аккорды

guitar chord Cm
guitar chord Fm
guitar chord G
guitar chord Bb

Разбор Агата Кристи - Опиум для никого на гитаре

1 Звезда2 Звезды3 Звезды4 Звезды5 Звезд (Пока оценок нет)
Загрузка...