Агата Кристи – Нисхождение

2019-09-21 Агата Кристи – Нисхождение
Вступление: Am Em F C Am Em F Am G }x2
            Am G }x2

E------0-0-----0-------3-
B----------------3-------
G--1-2-----2-2-----2-0---
D------------------------
A------------------------
E------------------------

     Am      G         Em
Мы играем, во что захотим,
    Am       G           Em
Мы упали, и летим, и летим...
          Am         G        Em
А куда-не знаем до поры, до поры,
      Am       G        Em
Мы слепые по законам игры.

Припев:
          E
Послушай, ветер свистит атональный мотив,
Am
Ветер назойлив, ветер игрив,
     E              Am
Он целует меня, он кусает меня,
           E
А тем, кто сам добровольно падает в ад
Am
Добрые ангеле не причинят
    E               Am
Никакого вреда, никогда.

E------0-0-----0-------3-
B----------------3-------
G--1-2-----2-2-----2-0---
D------------------------
A------------------------
E------------------------

     Am      G          Em
Тихо-тихо, отворилось окно
    Am       G            Em
Осторожно, слышишь запах его,
          Am         G           Em
Кто-то незнакомый нам решил помешать,
          Am         G        Em
Третий лишний занырнул под кровать.

Припев:
          E
Послушай, ветер свистит атональный мотив,
Am
Ветер назойлив, ветер игрив,
     E              Am
Он целует меня, он кусает меня,
           E
А тем, кто сам добровольно падает в ад
Am
Добрые ангеле не причинят
    E               Am
Никакого вреда, никогда.

Проигрыш: Am Em F C Am Em F Am G }x2
          Am G }x2

E------0-0-----0-------3-
B----------------3-------
G--1-2-----2-2-----2-0---
D------------------------
A------------------------
E------------------------

Припев:
          E
Послушай, ветер свистит атональный мотив,
Am
Ветер назойлив, ветер игрив,
     E              Am
Он целует меня, он кусает меня,
           E
А тем, кто сам добровольно падает в ад
Am
Добрые ангеле не причинят
    E               Am
Никакого вреда, никогда.

Агата Кристи - Нисхождение аккорды

guitar chord Am
guitar chord E
guitar chord Em
guitar chord G

Разбор Агата Кристи - Нисхождение на гитаре

1 Звезда2 Звезды3 Звезды4 Звезды5 Звезд (Пока оценок нет)
Загрузка...