Aerosmith – Pink

шрифт
Print this page
2021-02-24 Aerosmith – Pink
Verse:
  G   -   F   -  C  -   D
E--3-3-3--3-3-3--3-3-3-------------
B--3-3-3--3-3-3--3-3-3-------------
G--0-0-0--0-0-0--0-0-0---------0~~-
D--0------0------2-2-2------4------
A--2------0------3-------5---------
E--3------1------------------------

G - F - C - D
Pink it´s my new obsession
G - F - C - D
Pink it´s not even a question,
G - F - C - D
Pink on the lips of your lover, ´cause
G - F - C - D
Pink is the love you discover

G - F - C - D
Pink as the bing on your cherry
G - F - C - D
Pink ´cause you are so very
G - F - C - D
Pink it´s the color of passion
G - F - C - D
´Cause today it just goes with the fashion

Chorus:
G           F               C/D
Pink it was love at first sight
G           F             C/D
Pink when I turn out the light, and
G            F         C/D
Pink gets me high as a kite
      Em                  A               C
And I think everything is going to be all right
C7
No matter what we do tonight

Verse:
G - F - C - D
You could be my flamingo
G - F - C - D
´Coz pink is the new kinda lingo
G - F - C - D
Pink like a deco umbrella
G - F - C - D
It´s kink - but you don´t ever tell her

G - F - C - D
Pink it was love at first sight, and
G - F - C - D
Pink when I turn out the light
G - F - C - D
Pink gets me high as a kite
G - F - C - D
And I think everything is going to be all right
G - F - C - D
No matter what we do tonight

Chorus:
G           F               C/D
Pink it was love at first sight
G           F             C/D
Pink when I turn out the light, and
G            F         C/D
Pink gets me high as a kite
      Em                  A               C
And I think everything is going to be all right
C7
No matter what we do tonight

Solo:
E|------------------------------------------------------
B|--13-14-13------12--11--11/14--14~-----12/11--9-11-9~-
G|------------12----------------------12----------------
D|------------------------------------------------------
A|------------------------------------------------------
E|------------------------------------------------------

E|------------------------------------------------------------
B|------------------------------------------------------------
G|---8-9-8------6/7/6----6/9-9~---------9--13/11---9------9~~-
D|----------9----------7----------9--11---------------11------
A|------------------------------------------------------------
E|------------------------------------------------------------

E|--------------------------------------------------------------------
B|---6/7/6-----4/5/4------------7~~--------------7--9(11)-9--7--9--7~-
G|----------6---------4----4/6----------5--7--5----------------8------
D|-----------------------------------7--------------------------------
A|--------------------------------------------------------------------
E|--------------------------------------------------------------------

E|--------11--------13---------15----------17----21~~~~-
B|---7/9------9/11------11/13-------13/15---------------
G|------------------------------------------------------
D|------------------------------------------------------
A|------------------------------------------------------
E|------------------------------------------------------

Verse:
G - F - C - D
I want to be your lover
G - F - C - D
I wanna wrap you in rubber
G - F - C - D
As pink as the sheets that we lay on
G - F - C - D
Pink it´s my favorite crayon, yeah

G - F - C - D
Pink it was love at first sight
G - F - C - D
Pink when I turn out the light
G - F - C - D
Pink it´s like red but not quite
G - F - C - D
And I think everything is going to be all right
G - F - C - D
No matter what we do tonight

Chorus:
G           F               C/D
Pink it was love at first sight
G           F             C/D
Pink when I turn out the light, and
G            F         C/D
Pink gets me high as a kite
      Em                  A               C
And I think everything is going to be all right
C7
No matter what we do tonight

Aerosmith - Pink аккорды

guitar chord A
guitar chord C
guitar chord Em
guitar chord F
guitar chord G
guitar chord C/D
guitar chord C7

Разбор Aerosmith - Pink на гитаре

1 Звезда2 Звезды3 Звезды4 Звезды5 Звезд (Пока оценок нет)
Загрузка...

Добавить комментарий

Ваш адрес email не будет опубликован. Обязательные поля помечены *