AC/DC – Chase The Ace

шрифт
Print this page
guitar chord A
guitar chord C
guitar chord D
guitar chord G5
guitar chord A5
guitar chord C5
guitar chord D5
2020-09-05 AC/DC – Chase The Ace
Intrо:
Guitar I (Angus)
C5 D5 A5 C5 D5 A5
E|----------------------------------------------------------------|
B|------3-----------------------------3---------------------------|
G|---5--2--2-----------------------5--2--2------------------------|
D|---5--0--2--2-2-2-2-2-2-2-2-2-2--5--0--2--2-2-2-2-2-2-2-2-2-2---|
A|---3-----0--0-0-0-0-0-0-0-0-0-0--3-----0--0-0-0-0-0-0-0-0-0-0---|
E|----------------------------------------------------------------|

^ slight palm mute ^ slight palm mute

Guitar II (Маlсоlm)
C5 D5 A5 C5 D5 A5
E|----------------------------------------------------------------|
B|------3-----------------------------3---------------------------|
G|---5--2--2-----------------------5--2--2----------2-----2-------|
D|---5--0--2-----------------------5--0--2----------2-----2-------|
A|---3-----0-----------------------3-----0----------0-----0-------|
E|----------------------------------------------------------------|

Guitars I and II
C5 D5 A5 G5 D C G5 A C5 D5 A5
E|------------3--2-----------3---------------------|
B|------3-----3--3-----5-----3-----2--------3------|
G|---5--2--2--0--2-----5-----0-----2-----5--2--2---|
D|---5--0--2--0--0-----5-----0-----2-----5--0--2---|
A|---3-----0--x--------3-----x-----0-----3-----0---|
E|------------3--------------3---------------------|

Rhythm:
Guitar I
A5 C5 D5 A5
E|----------------------------------|
B|---------------------------3------|
G|------------------------5--2--2--о| play twice
D|---2-2-2-2-2-2-2-2-2-2--5--0--2--о|
A|---0-0-0-0-0-0-0-0-0-0--3-----0---|
E|----------------------------------|

^ slight palm mute

Guitar II
A5 C5 D5 A5
E|----------------------------------|
B|---------------------------3------|
G|-----2-----2-----2------5--2--2--о| play twice
D|-----2-----2-----2------5--0--2--о|
A|-----0-----0-----0------3-----0---|
E|----------------------------------|

Guitars I and II
G5 D C G5 A C5 D5
E|---3--2-----------3------------------|
B|---3--3-----5-----3-----2--------3---|
G|---0--2-----5-----0-----2-----5--2---|
D|---0--0-----5-----0-----2-----5--0---|
A|---x--------3-----x-----0-----3------|
E|---3--------------3------------------|

AC/DC - Chase The Ace аккорды

guitar chord A
guitar chord C
guitar chord D
guitar chord G5
guitar chord A5
guitar chord C5
guitar chord D5

Разбор AC/DC - Chase The Ace на гитаре

1 Звезда2 Звезды3 Звезды4 Звезды5 Звезд (Пока оценок нет)
Загрузка...

Добавить комментарий

Ваш адрес email не будет опубликован. Обязательные поля помечены *