9-й Район – Я ночью уйду

шрифт
Print this page
2021-01-25 9-й Район – Я ночью уйду
Вступление: x4
   Db
e|----------4--------------------9--8--6--4--------------6----|
B|----6--6-----6-----------6--6--------------6-----6--6-----6-|
G|------------------------------------------------------------|

   Gb                   Ab                      Bm
e|----9--8--11-9--8--6--4-----8--6--9--8--6--4--4h6------6-|
B|---------------------------------------------------------|
G|---------------------------------------------------------|

Db                         Bm
  Я постучусь тихонько в дверь,
                         Ab
  Лишь об одном скажу тебе -
            Gb
  Оставим ссоры за спиной.

Db                       Bm
  Да я ж такой же как и был,
                     Ab
  Ликер-цветы я не забыл,
            Gb
  Пришел с повинной головой.

	Db                    Ab           Bm
	  Ты знай, я ночью уйду - ты не услышишь.
	Db                    Ab           Bm
	  И дверь закрою на ключ - ты не услышишь.
	Db                    Ab           Bm
	  Живи уж там, где живешь - там, видно, лучше.
	Db                    Ab           Bm
	  И обо мне вспоминай на всякий случай.

Db                   Bm
  Назад былого не верну,
                         Ab
  Но, чем смогу, тем помогу,
            Gb
  Признайся, как легко со мной.

Db                       Bm
  Да ты скажи мне все сейчас,
                         Ab
  Ведь я пришел в последний раз,
            Gb
  Пришел с повинной головой.

	Db                    Ab           Bm
	  Ты знай, я ночью уйду - ты не услышишь.
	Db                    Ab           Bm
	  И дверь закрою на ключ - ты не услышишь.
	Db                    Ab           Bm
	  Живи уж там, где живешь - там, видно, лучше.
	Db                    Ab           Bm
	  И обо мне вспоминай на всякий случай.

Проигрыш: x2
   Db
e|----------4--------------------9--8--6--4--------------6----|
B|----6--6-----6-----------6--6--------------6-----6--6-----6-|
G|------------------------------------------------------------|

   Gb                   Ab                      Bm
e|----9--8--11-9--8--6--4-----8--6--9--8--6--4--4h6------6-|
B|---------------------------------------------------------|
G|---------------------------------------------------------|

Db                         Bm
  Я постучусь тихонько в дверь,
                        Ab
  Лишь об одном скажу тебе -
            Gb
  Оставим ссоры за спиной.

Db                         Bm
  В твой дом беду я не принес,
                         Ab
  Поверь, не в шутку, а всерьез
            Gb
  Пришел с повинной головой.

	Db                    Ab           Bm
	  Ты знай, я ночью уйду - ты не услышишь.
	Db                    Ab           Bm
	  И дверь закрою на ключ - ты не услышишь.
	Db                    Ab           Bm
	  Живи уж там, где живешь - там, видно, лучше.
	Db                    Ab           Bm
	  И обо мне вспоминай на всякий случай.

Кода: x4
   Db
e|----------4--------------------9--8--6--4--------------6----|
B|----6--6-----6-----------6--6--------------6-----6--6-----6-|
G|------------------------------------------------------------|

   Gb                   Ab                      Bm
e|----9--8--11-9--8--6--4-----8--6--9--8--6--4--4h6------6-|
B|---------------------------------------------------------|
G|---------------------------------------------------------|

9-й Район - Я ночью уйду аккорды

guitar chord Bm
guitar chord Ab
guitar chord Db
guitar chord Gb

Разбор 9-й Район - Я ночью уйду на гитаре

1 Звезда2 Звезды3 Звезды4 Звезды5 Звезд (Пока оценок нет)
Загрузка...

Добавить комментарий

Ваш адрес email не будет опубликован. Обязательные поля помечены *