5nizza – Морячок

шрифт
Print this page
2019-07-06 5nizza – Морячок
   C9
Я варвар
   C9
Вар вар вар вар ворвался в этот мир
          D9
Как Перл Харбор взорвался
          D9
Попал в прямой эфир
         C9
С бодрым утром, миру - мир.
                       D9
Мой папа-пацифист говорил:
                       D9
"Давай пис пис, Давай пис пис".

   C9
Я маленького роста
   C9
У меня одни несросты
          D9
Но не все так просто
          D9
Говорила мама: "переросток" плавно
         C9
Главное всегда быть рядом
         C9
О-оно мне надо? ("В жизни пригодится, сынок")
                       D9
Папа будь спок, все будет О-О-Кей
                       D9
Ведь трус не играет в хоккей

Припев:
1-----------------------------------------------
2--------3---3------3------------2----2-------2-
3--------3---3------3------------2----2-------2-
4--------2---2------2------------1----1-------1-
5--3--3---------------------2--2----------------
6--------------3--3----------------------2--2---

   C9
У черного моря
          D9
Я буду моряком, baby baby, come come
         C9
У черного моря
                D9
Морячок! Морячо-ок!

   C9
Я пла-пла-плавал
   C9
Я переплывал все реки, озера, моря
          D9
Но видимо зря, видимо зря
          D9
Видимо видимо видимо зря
         C9
(Без козыря козырка, без козырки козыря)
                       D9
Ла-ла-ла-ла-ла-ла-ла-ла-ла

   C9
Я опускался на дно
   C9
А там темно и холодно и страшно, но
          D9
Научно-популярное кино
          D9
Я смотрел в основном об одном:
         C9
Как Жак Ив Кусто километров на сто
         C9
В батискафе пьет Нес-Кафе
                       D9
Изучает подводные мирыбы и крабы
                       D9
До земной коры бы могут только рыбы
   C9
Я завидую рыбам
   C9
Они умеют плавать
          D9
А мне не повезло -
          D9
Мою жену зовут Клава
         C9
Она на кухне,
         C9
Она готовит отраву,
                      D9
А я Романтик, слушаю группу "Браво"

Припев:
1-----------------------------------------------
2--------3---3------3------------2----2-------2-
3--------3---3------3------------2----2-------2-
4--------2---2------2------------1----1-------1-
5--3--3---------------------2--2----------------
6--------------3--3----------------------2--2---

   C9
У черного моря
          D9
Я буду моряком, baby baby, come come
         C9
У черного моря
               D9
Морячок! Морячо-ок!

   C9
Они слева, они справа, они вокруг.
          D9
Киньте мне киньте спасательный круг! (На!)
         C9
Хватают за (Ой!), не дают мне уплыть
                       D9
Ла-ла-ла-ла-ла-ла-ла-ла-ла

   C9
Но я гордый моряк
   C9
Я открываю оба крана и ныряю на кафельное дно океана
          D9
Прямо черная яма, не хватает кислорода
          D9
Но всплывать еще рано (Моооре, моооре)
         C9
На борту катамарана все в сборе:
         C9
Капитан Григорий не первый раз в море
                   D9
А с ним юнга Геннадий
                      D9
Он не любил Марину Влади, 
   C9
Все работают приборы
   C9
Мое место в коридоре, мы идем на дно
          D9
Но это ерунда, да, есть акваланги
          D9
Я ангел, я генерал
         C9
Я никогда не умирал
         C9
Посмотри на ордена...
                 D9
Иди на... Послушай...

Припев:
1-----------------------------------------------
2--------3---3------3------------2----2-------2-
3--------3---3------3------------2----2-------2-
4--------2---2------2------------1----1-------1-
5--3--3---------------------2--2----------------
6--------------3--3----------------------2--2---

   C9
У черного моря
          D9
Я буду моряком, baby baby, come come
         C9
У черного моря
                D9
Морячок! Морячо-ок!

5nizza - Морячок аккорды

1 Звезда2 Звезды3 Звезды4 Звезды5 Звезд (Пока оценок нет)
Загрузка...

Добавить комментарий

Ваш адрес email не будет опубликован. Обязательные поля помечены *