30 Seconds To Mars – Attack

шрифт
Print this page
2021-02-21 30 Seconds To Mars – Attack
Intro:
eb-----------------|----------------9-|
Bb-----9--10-9-7---|--9---7-9---7-----|
Gb-----------------|------------------|
Db-7-7---7-------7-|----7-----7---7---|
Ab-----------------|------------------|
Eb-----------------|------------------|

eb-----------------|----------------9-|
Bb-----9--10-9-7---|--9---7-9---7-----|
Gb-----------------|------------------|
Db-6-6---6-------6-|----6-----6---6---|
Ab-----------------|------------------|
Eb-----------------|------------------|

eb-----------------|----------------9-|
Bb-----9--10-9-7---|--9---7-9---7-----|
Gb-----------------|------------------| 
Db-9-9---9-------9-|----9-----9---9---| x2
Ab-----------------|------------------|
Eb-----------------|------------------|

       A             A / Ab
I won't suffer, be broken, get tired, or wasted
   F#m
Surrender to nothing, or give up what I
   D                 E
Started and stopped it, from end to beginning
  F#m              N/С       D
A new day is coming, and I am finally free

D      E5
Run away, run away, I'll attack
F#m           C#5
Run away, run away, go chase yourself
D       E
Run away, run away, now I'll attack
F#m            C#5
I'll attack, I'll aa-WHOOOAAAAAAAAA

         A                  A / Ab
I would have kept you, forever, but we had to sever
F#m                N/С
It ended for both of us, faster than a
D                 E
Kill off this thinking, it's starting to sink in
F#m                N/С                 D
I'm losing control now, and without you I can finally see

D      E5
Run away, run away, I'll attack
F#m           C#5
Run away, run away, go chase yourself
D       E
Run away, run away, now I'll attack
F#m            C#5
I'll attack, I'll aa-WHOOOAAAAAAAAA

A      A / Ab              F#m
Your promises, they look like lies
                            D
Your honesty, like a back that hides a knife (knife)
       E
I promise you (promise you)
         F#m
I promise you (promise you)
N/С
And I am finally free

D         E
Run away, run away, I'll attack
F#m          C#5
Run away, run away, go chase yourself
D        E
Run away, run away, now I'll attack
F#m             C#5
I'll attack, I'll attack, I will attack

D              E
Run away, I'll attack, I will attack
F#m             C#5
Run away, I'll attack, I will attack

D         E             F#m
Run away (Run away), I'll attack (I'll attack)
      C#5
I'll aa-WHOOOAAAAAAAAA

A A / Ab
  Your promises
F#
(promises, promises) I promise you
D
(promise you) I promise you
E
(promise you, promise you)

30 Seconds To Mars - Attack аккорды

guitar chord D
guitar chord E
guitar chord E5
guitar chord F#
guitar chord F#m
guitar chord C#5

Разбор 30 Seconds To Mars - Attack на гитаре

1 Звезда2 Звезды3 Звезды4 Звезды5 Звезд (Пока оценок нет)
Загрузка...

Добавить комментарий

Ваш адрес email не будет опубликован. Обязательные поля помечены *